GYPSY EYES As recorded by Jimi Hendrix

GYPSY EYES
As recorded by Jimi Hendrix
(From the 2004 Album ELECTRIC LADYLAND)

Words and Music by Jimi Hendrix
Arranged by Experience Hendrix L.L.C.(ASCAP)
Transcribed by Funkgott

A7+9
x 12 11 12 13 x

Gtr I (D# G# C# F# A# D#) - 'Overdriven'
Gtr II (D# G# C# F# A# D#) - 'clean'
Gtr III (D# G# C# F# A# D#) - 'clean'
Gtr IV (D# G# C# F# A# D#) - 'Distortion'
Gtr V (D# G# C# F# A# D#) - 'Distortion'

Intro
Q=120
4/4
Gtr I
W W W H Q Q
|----------|----------|----------|--------------|
|----------|----------|----------|---------x\---|
|----------|----------|----------|---------x\---|
|----------|----------|----------|---------x\---|
|----------|----------|----------|--------------|
|----------|----------|----------|--------------|
|
| Gtr II
| W W W W
|----------|----------|----------|--------------|
|----------|----------|----------|--------------|
|----------|----------|----------|--------------|
|----------|----------|----------|--------------|
|----------|----------|----------|--------------|
|----------|----------|----------|--------------|


H Q E E H Q Q
|-----------------------------------|--------------------------|
|--------------------------x\-------|--------------------x\----|
|--------------------------x\-------|--------------------x\----|
|--------------------------x\-------|--------------------x\----|
|----------------------------0---|-----------------------------|
|-----------------------------------|--------------------------|
|


H Q Q
|-------------------------------------|
|-------------------------x\---------|
|-------------------------x\---------|
|-------------------------x\---------|
|-------------------------------------|
|-------------------------------------|
|
| a S S S S E E S S S E S S S
|---------------------3b5r===3p0-----|
|---------------x-x--------------0------------|
|-0h2p0h2p0---2-x-x------------------|
|---------------x-x----------------------------|
|-----------3-------0-------------------------|
|-----------------------------------------------|






+H E E E E
|------------------------|
|---------------13-15b17-|
|-(14)------/14----------|
|------------------------|
|------------------------|
|------------------------|
|
| H E E E E
|------------------------|
|----------------1--3b5--|
|--(2)----0---2----------|
|------------------------|
|------------------------|
|------------------------|


E Q S S E Q. H. S E.
|-15------------------------------|---------------------|
|----15b17--15b17r(15)p13---------|-------------13\-----|
|-------------------------14------|-14----------14\-----|
|---------------------------------|---------------------|
|---------------------------------|---------------------|
|---------------------------------|---------------------|
|
| E Q S S E Q. H.. S S
|--3------------------------------|---------------------|
|-----3b5----3b5r==(3)p=1---------|---------------------|
|--------------------------0tr2---|--2--------------0-0-|
|---------------------------------|---------------------|
|---------------------------------|---------------------|
|---------------------------------|---------------------|


H Q S S S S
|-----------------------------|
|-----------------------------|
|---------------------x-x-x-x-|
|---------------------x-x-x-x-|
|-----------------------------|
|-----------------------------|
|
| |-3-|
| E E S S S S E S S S S S E
|---0-------------------------|
|---1-------------------------|
|-----2-0-2-0---2p0h2-2-0-----|
|-----------------------------|
|-0-----------3-----------3---|
|-----------------------------|


H Q S E S E E H S S S S
|-----------------------------|-----------------------------|
|-----------------------------|-----------------------------|
|-x-------------------x-x---x-|-x-------------------x-x-x-x-|
|-x-------------------x-x---x-|-x-------------------x-x-x-x-|
|-----------------------------|-----------------------------|
|-----------------------------|-----------------------------|
|
| |-3-| |-3-|
| E E S S S S E S S S S S E E E S S S S E S S S S S E
|---0-------------------------|---0-------------------------|
|---1-------------------------|---1-------------------------|
|-2---2-0-2-0---2p0h2-2-0-----|-2---2-0-2-0---2p0h2-2-0-----|
|-----------------------------|-----------------------------|
|-------------3-----------3---|-------------3-----------3---|
|-----------------------------|-----------------------------|


E Q. S S S S S S S S
|--------------12--12-12-12-12-12-12-12\-|
|-x------------13--13-13-13-13-13-13-13\-|
|-x--------------------------------------|
|----------------------------------------|
|----------------------------------------|
|----------------------------------------|
|
| E E S S S S E E S S E
|---0------------------------------------|
|---1------------------------------------|
|-2----2-0-2-x---------------------------|
|---------------5\-----------------------|
|----------------------------------------|
|----------------------3--------3--3-----|


W Q H.
|---------------------|-------------------------------|
|---------------------|-------------------------------|
|---------------------|-----11b13=====================|
|---------------------|-----12b14=====================|
|---------------------|-------------------------------|
|---------------------|-------------------------------|
|
| E E E S S E E E S S E E S S S S S S E E S S
|---------------------|-------------------------------|
|---------------------|-------------------------------|
|-----0-2-2-----0-2-2-|------2-----2-2-2-------2---0--|
|---------------------|-------------------------------|
|---0---------0-------|---0--------------0-0-0--------|
|-3---------3---------|-3-----------------------------|


W a
|-----------------------------|
|-----------------------------|
|-(11)r==================(11)-|
|-(12)r==================(12)-|
|-----------------------------|
|-----------------------------|
|
| E E E S S E E E S S
|-----------------------------|
|-----------------------------|
|--------0-2-2-----0-2-2------|
|-----------------------------|
|------0---------0------------|
|---3----------3--------------|


Verse I
Q E E S S S S S E. W
|--------------------12-12-12-12-12\------|---------------------|
|--------------------13-13-13-13-13\------|---------------------|
|-----11b12r==(11)------------------------|---------------------|
|-----12b14r==(12)------------------------|---------------------|
|-----------------------------------------|---------------------|
|-----------------------------------------|---------------------|
|
| E E S S S S S S E E E S E. E E E E E E
|-----------------------------------------|-0-0--0-2-2b3-2-0----|
|-----------------------------------------|-1-1--1-3-3b5-3-1----|
|------0----2---2--2--------------2-------|------------------2--|
|-----------------------------------------|---------------------|
|---0-----------------0--0--0-------------|---------------------|
|-3---------------------------------------|---------------------|


E Q E E E E E W
|--------------------------------|----------------------|
|---8b10-------------------------|----------------------|
|--------------8b9r====(8)-7-5---|----------------------|
|------------------------------7-|----------------------|
|--------------------------------|----------------------|
|--------------------------------|----------------------|
|
| |--3--|
| E S S +E S S S E E E E S E. E E E E E S S
|-0------------------------------|-0-0--0-2-2b3-2-0-----|
|-1------------------------------|-1-1--1-3-3b5-3-1-----|
|---2----0-(0)-0h==2p0--0--0-0-2-|------------------2p0-|
|--------------------------------|----------------------|
|--------------------------------|----------------------|
|--------------------------------|----------------------|


S S S S S S S S S S S S S S S S
|-------------------------------------------|
|-------------------------------------------|
|------5-7-7b9r(7)p5-------5-7-7b9r(7)p5----|
|----7---------------7---7---------------7--|
|-------------------------------------------|
|-------------------------------------------|
|
| Q. H E
|-0----------------0------------------------|
|-1----------------1------------------------|
|--------------------------------------2----|
|-------------------------------------------|
|-------------------------------------------|
|-------------------------------------------|


W W E Q E E E. S E
|----------------------|-----------------------------|--------------------|
|----------------------|-----------------------------|-8-5----------------|
|----------------------|-----------------------------|-------7---5----5---|
|----------------------|-----------------------------|------------------7-|
|----------------------|-----------------------------|--------------------|
|----------------------|-----------------------------|--------------------|
|
| |-3-| |-3-|
| S E. E E E E E S S E S S S E T S. E S S S Q E E E E E E E E
|-0-0--0-2-2b3-2-0-----|-0---------------------------|--------------------|
|-1-1--1-3-3b5-3-1-----|-1---------------------------|--------------------|
|------------------2p0-|---2p0h2-0-0h2----0h2p0------|-0------------------|
|----------------------|------------------------(0)--|---2---0------------|
|----------------------|-----------------------------|-----------3------0-|
|----------------------|-----------------------------|--------------------|


E Q E S E S S S S S W Q H.
|-----------8---8---8---8-------|---------------------|-------------------|
|---------x-8---8---8---8-------|---------------------|-------------------|
|-7-5-----x-7b9-7b9-7b9-7b9-7p5-|---------------------|-----11b13=========|
|-------------------------------|---------------------|-----12b14=========|
|-------------------------------|---------------------|-------------------|
|-------------------------------|---------------------|-------------------|
|
| E E Q H E E E S S E E E S S E E H Q
|-------------------------------|---------------------|-------------------|
|-------------------------------|---------------------|-------------------|
|-------------------------------|-----0-2-2-----0-2-2-|-------------------|
|-0-----------------------------|---------------------|-------------------|
|---3---------------------------|---0---------0-------|---0---------------|
|-------------------------------|-3---------3---------|-3-----------------|


Verse II
W a Q S S E H W
|-----------------------------|--------------------|------------------|
|-----------------------------|-----7b9r==7-5------|------------------|
|-(11)r==================(11)-|-----7b8.5r7-5------|------------------|
|-(12)r===================12--|--------------------|------------------|
|-----------------------------|--------------------|------------------|
|-----------------------------|--------------------|------------------|
|
| E E E S S E E E S S E E Q H Q E E E E E E
|-----------------------------|--------------------|-0--0-2-2b4-2-0---|
|-----------------------------|--------------------|-1--1-3-3b5-3-1---|
|--------0-2-2-----0-2-2------|--------------------|----------------2-|
|-----------------------------|--------------------|------------------|
|------0---------0------------|---0----------------|------------------|
|---3----------3--------------|-3------------------|------------------|


Q Q E E E E
|-15b17---15b17--15b17-12-15-15b17-|
|----------------------------------|
|----------------------------------|
|----------------------------------|
|----------------------------------|
|----------------------------------|
|
| E E Q Q E E
|--0-------------------------------|
|--1-------------------------------|
|-----------------------------2----|
|----------------------------------|
|----------------------------------|
|----------------------------------|


W E Q. a E E Q
|--------------------|-----15---------------------------|
|--------------------|-----15b17====12rh(15)-13---------|
|--------------------|--------------------------14\-----|
|--------------------|----------------------------------|
|--------------------|----------------------------------|
|--------------------|----------------------------------|
|
| E. S E E E E E E H.. S S
|-0--0-0-2-2b4-2-0---|-0--------------------------------|
|-1--1-1-3-3b5-3-1---|-1--------------------------------|
|------------------2-|------------------------------2-2-|
|--------------------|----------------------------------|
|--------------------|----------------------------------|
|--------------------|----------------------------------|


W
|----------------------|
|----------------------|
|----------------------|
|----------------------|
|----------------------|
|----------------------|
|
| S E. E E E E S S E
|-0-0--0-2-2b4-2-0-0---|
|-1-1--1-3-3b5-3-1-1---|
|--------------------2-|
|----------------------|
|----------------------|
|----------------------|


E E E E Q Q E Q E E Q E
|-----------------------------------------------------|------------------|
|-----------------------------------------------------|-8-5--------------|
|---19b21-17------16b19-----17b19---------------------|-------7---5------|
|-----------------------------------------19\---------|---------------7--|
|-----------------------------------------------------|------------------|
|-----------------------------------------------------|------------------|
|
| E E S S S E S E S S E E E E E E E E E
|-0---------------------------------------------------|------------------|
|-1---------------------------------------------------|------------------|
|----2------------------(2)-------(2)-(0)-------------|-0----------------|
|---------(0)-(0)-(2)---------------------(2)-(1)-(0)-|---2---0----------|
|-----------------------------------------------------|-----------3---0--|
|-----------------------------------------------------|------------------|


|-3-|
E Q E H H E E S S S S S E E Q S +S S S S E.
|--------------|--------------(5)-------|----------------------------------|
|--------------|------------5-----5-----|-----------8-----8---8b10---------|
|-7-5----------|--------7b9---------7-5-|-----------7-(7)-9-7--------------|
|--------------|------------------------|-7--------------------------------|
|--------------|------------------------|----------------------------------|
|--------------|------------------------|----------------------------------|
|
| E E Q H W E E E S E S E E S S
|--------------|------------------------|----------------------------------|
|--------------|------------------------|----------------------------------|
|--------------|------------------------|-2-0-2-0-2----2--0---2-------0-1--|
|-0------------|------------------------|----------------------------------|
|---3----------|------------------------|----------------------------------|
|--------------|------------------------|----------------------------------|


Interlude
~~~
Q E S S S S E Q
|---------------------------------|
|-(8)---13------------13----------|
|-------12-12-----12--12----------|
|----------12h14-(14)----14-------|
|---------------------------------|
|---------------------------------|
|
| E E E S E S E E S S
|---------------------------------|
|---------------------------------|
|--2--0--2--0--2-------2--0-2-0-1-|
|---------------------------------|
|---------------------------------|
|---------------------------------|


Q E S S +S S E Q Q E S S S S E E E
|-------------------------------|---------------------------------|
|-----13------------13-12-------|-----13--------13----------------|
|-----12------------12----------|-----12---------------12----12---|
|--------12-14-(14)-14p12-------|--------12-14-(14)-14----14------|
|-------------------------------|---------------------------------|
|-------------------------------|---------------------------------|
|
| E E E S E S E E S S E E E S E S E E S S
|-------------------------------|---------------------------------|
|-------------------------------|---------------------------------|
|-2-0--2--0--2-------2--0-2-0-1-|-2----2--0--2-------2--0--2--0-1-|
|-------------------------------|---------------------------------|
|-------------------------------|---0-----------------------------|
|-------------------------------|---------------------------------|


E E E S S E S S S S E
|-------------------------------------|
|------13-------13--------------------|
|---12-12------------12-12-12-12-12---|
|---------12h14-----------------------|
|-------------------------------------|
|-------------------------------------|
|
| E E E S E S E E S S
|-------------------------------------|
|-------------------------------------|
|-2-----2--0--2----2--0-----2-----0-1-|
|-------------------------------------|
|----0--------------------------------|
|-------------------------------------|


Q E S S E S S S S E Q E S S +S S E Q
|------------------------------------|--------------------------------|
|-----13-------13--------------------|------13------------13-13-------|
|-----12------------12-12-12-12-12---|-12---12------------12-12-------|
|--------12h14-----------------------|---------12h14-(14)-------------|
|------------------------------------|--------------------------------|
|------------------------------------|--------------------------------|
|
| E E E S E S E E S S E E E S E S E E S S
|------------------------------------|--------------------------------|
|------------------------------------|--------------------------------|
|-2----2--0--2----2--0-----2-----0-1-|--2----2--0--2-------2--0-2-0-1-|
|------------------------------------|--------------------------------|
|---0--------------------------------|----0---------------------------|
|------------------------------------|--------------------------------|


E E E S S +S S S S E S S
|-------------------------------------|
|------13-----------------------------|
|---12------------------12-12---12-12-|
|---------12-14-(14)-14---------------|
|-------------------------------------|
|-------------------------------------|
|
| E E E S E S E E S S
|-------------------------------------|
|-------------------------------------|
|-2-----2--0--2-------2--0----2--0--1-|
|-------------------------------------|
|----0--------------------------------|
|-------------------------------------|


Q E S S +S S S S E S S E E E S S S S S S Q
|------------------------------------|----------------------------------|
|-----13-----------------------------|------13-------13-13-13-13--------|
|-----12---------------12-12---12-12-|---12-12-------------12-12--------|
|--------12h14-(14)-12---------------|---------12h14-14-14-12-12--------|
|------------------------------------|----------------------------------|
|------------------------------------|----------------------------------|
|
| E E E S E S E E S S E E E S E S E E S S
|------------------------------------|----------------------------------|
|------------------------------------|----------------------------------|
|-2----2--0--2-------2--0----2--0--1-|-2-----2--0--2-----2--0----2-0-1--|
|------------------------------------|----------------------------------|
|---0--------------------------------|----0-----------------------------|
|------------------------------------|----------------------------------|


Q E S S +S S E E S S Q E S S S S S S Q
|-------------------------------------|--------------------------------|
|-----13------------13----------------|-----13-------13-13-------------|
|-----12---------------12---(12)-(12)-|-----12-------12-12-------------|
|--------12-14-(14)-------------------|--------12h14-------14p12-------|
|-------------------------------------|--------------------------------|
|-------------------------------------|--------------------------------|
|
| E E E S E S E E S S E E E S E S E E S S
|-------------------------------------|--------------------------------|
|-------------------------------------|--------------------------------|
|-2----2--0--2-------2--0-2---0----1--|-2----2--0--2-----2--0----2-0-1-|
|-------------------------------------|--------------------------------|
|---0---------------------------------|---0----------------------------|
|-------------------------------------|--------------------------------|


Q E S S S S E Q Q E S S S S E E E
|-----------------------------|--------------------------------|
|-----13-------------13-------|-----13-------13-13-12-12-------|
|-----12-12-12-12-12-12-------|-----12-------12-12-12-12-------|
|-----------------------------|--------12h14-14-14-12-12-------|
|-----------------------------|--------------------------------|
|-----------------------------|--------------------------------|
|
| E E E S E S E E S S E E E S E S E E S S
|-----------------------------|--------------------------------|
|-----------------------------|--------------------------------|
|-2----2--0--2-----2--0-2-0-1-|-2----2--0--2-----2--0--2-0-1---|
|-----------------------------|--------------------------------|
|---0-------------------------|---0----------------------------|
|-----------------------------|--------------------------------|


Guitar Solo
Gtr I
E E E Q E S S E
|-10b12-10b12-10b12-10b12--10b12-10b12r(10)-8-|
|---------------------------------------------|
|---------------------------------------------|
|---------------------------------------------|
|---------------------------------------------|
|---------------------------------------------|
|
| Gtr III
| E E E Q E S S E
|--3b5---3b5---3b5---3b5----3b5---3b5r==(3)p0-|
|---------------------------------------------|
|---------------------------------------------|
|---------------------------------------------|
|---------------------------------------------|
|---------------------------------------------|


E E E Q E. S E
|-10-10-10-10--10b12r======(10)-8---|
|-----------------------------------|
|-----------------------------------|
|-----------------------------------|
|-----------------------------------|
|-----------------------------------|
|
| E E E Q S S E E
|--3--3--3--3---3b5r=3-(0)----------|
|-------------------------------3b5-|
|-----------------------------------|
|-----------------------------------|
|-----------------------------------|
|-----------------------------------|


Gtr I
> < H H Q E. S E E S E. |---------------|-8--5--------------| |-10------10----|-------8-5---------| |---------------|-----------7-5-----| |---------------|---------------7---| |---------------|-------------------| |---------------|-------------------| | | Gtr II | > < | H H Q E. S E E S S E |---------------|-3--0--------------| |--1-------1----|-------3-1---------| |---------------|-----------2-0-----| |---------------|---------------2S0-| |---------------|-------------------| |---------------|-------------------| | | Gtr III | E E Q H W |---------------|-------------------| |---------------|-------------------| |---------------|-------------------| |--7------------|-------------------| |---------------|-------------------| |---------------|-------------------| Q Q Q Q H Q Q |-----------------------------x\------|---------------------x\--------| |-----------------------------x\------|---------------------x\--------| |-----------------------------x\------|---------------------x\--------| |-------------------------------------|-------------------------------| |-0-----------------------------------|-------------------------------| |-------------------------------------|-------------------------------| | | |-3-| | S S S S S E a E S a a S S S S S S S T T S S S E E S S E S S e |-------------------------------------|---------------------2--0------| |-------------------x-x-x-x-1---------|---------------x-x---3--1------| |-0h2p0-2-0---0-2-----------0h2p0-----|-0h2p0-2-0---2-----------------| |-------------------------------------|-------------------------------| |-----------3---------------------0-0-|-----------3-------0-----------| |-------------------------------------|--------------------------0----| | | W W |-------------------------------------|-------------------------------| |-------------------------------------|-------------------------------| |-------------------------------------|-------------------------------| |-------------------------------------|-------------------------------| |-------------------------------------|-------------------------------| |-------------------------------------|-------------------------------| W H Q E E |---------------------------|------------------------------12--15--| |---------------------------|--------------------------------------| |---------------------------|--------------------------------------| |---------------------------|--------------------------------------| |---------------------------|--------------------------------------| |---------------------------|--------------------------------------| | | W a a H S S E Q |---------------------------|--------------------------------------| |---------------------------|--------------------------1-----------| |---------------------------|-0h2p0tr2-----------------2-----------| |---------------------------|--------------------------------------| |---------------------------|------------------------0---0--0------| |---------------------------|--------------------------------------| | | |-3-| |-3-| | S S S S S E E S S E S S E a S S S S E S S S S S E E E |---------------------2-0---|------------------------------(5)-(7)-| |---------------x-x---3-1---|--------------------------------------| |-0h2p0-2-0---2-------------|-0---2----0-2-0---0-2-0-2-0-----------| |-------------------------7-|----------------------------2---------| |-----------3-------0-------|----------------3---------------------| |---------------------------|--------------------------------------| Chorus E E E E +E E S E S Q E E +E S S E E |-15b17-17-15-15b17-(15)b17-15----------------|-------------------------------| |------------------------------16b17r16p===13-|-15--13-15-(15)-------13-15b16-| |---------------------------------------------|----------------12-14----------| |---------------------------------------------|-------------------------------| |---------------------------------------------|-------------------------------| |---------------------------------------------|-------------------------------| | | E E E E +E E E E Q E E +E S S E E |--3b5---5--3--3b5---(3)-----5----------------|-------------------------------| |-------------------------------4b5r=====4----|--3---1--3--(3)--------1--3b4--| |---------------------------------------------|-----------------0--2----------| |---------------------------------------------|-------------------------------| |---------------------------------------------|-------------------------------| |---------------------------------------------|-------------------------------| | | Q E E +E E S S E Q E E H |--7b9------7--7b9===(7)-----7--7r===(7)-5----|-------------------------------| |---------------------------------------------|--8---5--8---------------------| |---------------------------------------------|-------------------------------| |---------------------------------------------|-------------------------------| |---------------------------------------------|-------------------------------| |---------------------------------------------|-------------------------------| E Q S S E Q. |-15-----------------------------| |----15b17--15b17r15p=13---------| |------------------------14------| |--------------------------------| |--------------------------------| |--------------------------------| | | E Q S S E Q. |--3-----------------------------| |-----3b5----3b5r=(3)p=1---------| |-------------------------0tr2---| |--------------------------------| |--------------------------------| |--------------------------------| +H E E E E E Q S S E Q. |------------------------|-15------------------------------| |---------------13-15b17-|----15b17--15b17r(15)p13---------| |-(14)------/14----------|-------------------------14------| |------------------------|---------------------------------| |------------------------|---------------------------------| |------------------------|---------------------------------| | | H E E E E E Q S S E Q. |------------------------|--3------------------------------| |----------------1--3b5--|-----3b5----3b5r==(3)p=1---------| |--(2)--------2----------|--------------------------0tr2---| |------------------------|---------------------------------| |------------------------|---------------------------------| |------------------------|---------------------------------| +H E E E E E E E H E +H E E E E |----------------------|---------------------|--------------------| |-----------------13---|-------13------------|--------------13-15-| |-(14)------12-14------|-12-14----2tr12----0-|-(0)----12-14-------| |----------------------|---------------------|--------------------| |----------------------|---------------------|--------------------| |----------------------|---------------------|--------------------| | | H E E E E E E E H E +H E E E E |----------------------|---------------------|--------------------| |---------------1--3b5-|--------1------------|---------------1--3-| |--(2)-------2---------|--0--2----0tr2-----0-|-(0)-----0--2-------| |----------------------|---------------------|--------------------| |----------------------|---------------------|--------------------| |----------------------|---------------------|--------------------| W W W H Q Q |------------------------|------------|------------|---------------| |------------------------|------------|------------|-----------x\--| |------------------------|------------|------------|-----------x\--| |------------------------|------------|------------|-----------x\--| |------------------------|------------|------------|---------------| |------------------------|------------|------------|---------------| | | >
| E. E. E S S Q. +W +W +W
|------------------------|------------|------------|---------------|
|-3b4-3b4-3b4r3-1--------|------------|------------|---------------|
|-----------------0tr2---|-(0)--------|-(0)--------|-(0)-----------|
|------------------------|------------|------------|---------------|
|------------------------|------------|------------|---------------|
|------------------------|------------|------------|---------------|


W W
|---------------------------|-------------------------|
|---------------------------|-------------------------|
|---------------------------|-------------------------|
|---------------------------|-------------------------|
|---------------------------|-------------------------|
|---------------------------|-------------------------|
|
| |-3-|
| E E S S S S E S S S S S E E E S S S S E S S S S E
|---0-----------------------|---0---------------------|
|---1-----------------------|---1---------------------|
|-2---2-0-2-0---2p0h2-2-0---|-2---2-0-2-0---2-0-2-0---|
|---------------------------|-------------------------|
|-0-----------3-----------3-|-------------3---------3-|
|---------------------------|-------------------------|


W H E Q.
|-------------------------|---------------15-------------|
|-------------------------|---------------15b17----------|
|-------------------------|------------------------------|
|-------------------------|------------------------------|
|-------------------------|------------------------------|
|-------------------------|------------------------------|
|
| E E S S S S E S S S S E E E S S S S E E S E S
|---0---------------------|---0--------------------------|
|---1---------------------|---1--------------------------|
|-2---2-0-2-0---2-0-2-0---|-2---2-0-2-0----x----x-x------|
|-------------------------|------------------------------|
|-------------3---------3-|-------------3----------------|
|-------------------------|-------------------------0----|


Gtr II
E E E S S E E E S S E E S S E E E E E
|--------------------------|-----------------------------------|
|--------------------------|-----------------------------------|
|------0-2-2---------0-2-2-|-----------------------------------|
|--------------------------|----------0-(0)----0-------0-------|
|----0----------0----------|-------0---------3------------3----|
|--3---------3-------------|---3------------------3------------|
|
| Gtr III
| H E Q. E E E Q E Q
|--------------15----------|--15--15--------15---15\-----------|
|--------------15b17-------|--15--15-15-----15---15\-----------|
|--------------------------|-----------------------------------|
|--------------------------|-----------------------------------|
|--------------------------|-----------------------------------|
|--------------------------|-----------------------------------|
|
| Gtr I
| >
| W +H E Q E
|-15-----------------------|-(15)----------------15------15----|
|-15-----------------------|-(15)----------------15b17---15b16-|
|--------------------------|-----------------------------------|
|--------------------------|-----------------------------------|
|--------------------------|-----------------------------------|
|--------------------------|-----------------------------------|


E E E S S E E E S S E E S S E E S S E S S
|--------------------------------------------------------------|--------------------------------|
|--------------------------------------------------------------|--------------------------------|
|-------------0------2------2----------------------0-------2-2-|------------------0--------0-0--|
|--------------------------------------------------------------|----------1-0-------1-0---------|
|---------0---------------------------0------------------------|------0--------3---------3------|
|--3----------------------------3------------------------------|--3-----------------------------|
|
| |----------3----------|
| H Q Q Q E E E E Q Q
|------------------------------15-------15-----------15--------|-15--15--15---------------------|
|------------------------------15b17====15b17--------15b17-----|-15r(15)-15---13-13-------------|
|--------------------------------------------------------------|------------------------14------|
|--------------------------------------------------------------|--------------------------------|
|--------------------------------------------------------------|--------------------------------|
|--------------------------------------------------------------|--------------------------------|
|
| E E E E E. S Q W
|-15-----15--15b17r=15---------15--------------15--------------|--------------------------------|
|-15b17r(15)-------(15)b17====(15)r===========(15)-------------|--------------------------------|
|--------------------------------------------------------------|--------------------------------|
|--------------------------------------------------------------|--------------------------------|
|--------------------------------------------------------------|--------------------------------|
|--------------------------------------------------------------|--------------------------------|


Verse III
A7+9
H Q S S E H E a E a E a E W
|-----------------------|---------------------------|-------------------------|
|-----------------------|---------------------------|-------------------------|
|-----------------0-0---|---------------------------|-------------------------|
|---------------------4-|-------------0h=2-0h=2-0h2-|-------------------------|
|-----------------------|---------------------------|-------------------------|
|-----------------------|---------------------------|-------------------------|
|
| W W E E E S S E E S S S S
|-----------------------|---------------------------|-------------------------|
|-----------------------|---------------------------|-------------------------|
|-----------------------|---------------------------|------0-2-2--------------|
|-----------------------|---------------------------|----------------2-0------|
|-----------------------|---------------------------|----0---------0-----3-0--|
|-----------------------|---------------------------|--3---------3------------|
|
| Q E S S S S E Q Q E S S E E Q Q Q H
|-------x-x-x-x-x-------|-------x-x-x---------------|-------------------------|
|----13-----------------|----13--------------13-----|-------------------------|
|----12-----------------|----12---------14----------|-14----------------------|
|----11-----------------|----11---------------------|-------------------------|
|----12-----------------|----12---------------------|-------------------------|
|-----------------------|---------------------------|-------------------------|


Q E E S E. E E W
|----------------------------|------------------------|
|----------------------------|------------------------|
|--------------------------0-|------------------------|
|-----2----0----5S===4---2---|------------------------|
|----------------------------|------------------------|
|----------------------------|------------------------|
|
| Q E E Q E E Q Q H
|----------------------------|-8b10-------------------|
|----------1b4--1b3------1---|------------------------|
|--------------------------2-|------------------------|
|----------------------------|------------------------|
|----------------------------|------------------------|
|----------------------------|------------------------|
|
| Q Q Q Q E E E S S E E E S S
|----------------------------|------------------------|
|----13b16-----13b15---------|------------------------|
|-----------------------14---|--------0-2-2-----0-2-2-|
|----------------------------|------------------------|
|----------------------------|------0---------0-------|
|----------------------------|-3------------3---------|


Q E E E E E S S
|-----------------------------------|
|-----3b5-1---3b5-3--1--------------|
|-------------------------2-0-------|
|-----------------------------------|
|-----------------------------------|
|-----------------------------------|
|
| H Q Q a
|-----------------------------------|
|-------------------13b16r====(13)--|
|-----------------------------------|
|-----------------------------------|
|-----------------------------------|
|-----------------------------------|
|
| E E E S S E E E S S
|-----------------------------------|
|-----------------------------------|
|-------------0---------------------|
|-----0---1-0-----0-----------------|
|---0----------------3----0---------|
|-3-------------------------3-------|


Gtr I
W H E Q E
|---------------------|---------------------|
|---------------------|-------------13---15-|
|---------------------|---------------------|
|---------------------|---------------------|
|---------------------|---------------------|
|---------------------|---------------------|
|
| Gtr II
| E E E S S E E E S S E E E S S E E E E
|---------------------|---------------------|
|---------------------|--------------3-1----|
|-----0-2-2-----0-2-2-|-----0-2-0-0-------2-|
|---------------------|---------------------|
|---0---------0-------|---0-----------------|
|-3---------3---------|-3-------------------|


|--3--|
E Q. E E E E +E S S S E S S E E Q
|---------------------------------|-------------------------------------|
|-15b17-15b17------13-15----15b17-|-(15)-13-15-13----13-----------------|
|------------------------14-------|---------------14----14-12-----------|
|---------------------------------|-------------------------------------|
|---------------------------------|-------------------------------------|
|---------------------------------|-------------------------------------|
|
| Q E. S E E E E E E E S S E E E S S
|-------------0-------------------|-------------------------------------|
|-------------0--1----------------|-------------------------------------|
|-------------0-----2-----0--2----|-------------------------------------|
|----------------------2----------|----------------5--7--7--5-7-7-5-5---|
|---------------------------------|-------7-----------------------------|
|---------------------------------|-------------------------------------|


E Q. +E E S S E +E S S E E +S S S S S E.
|---12b15-----(12)-12b14-12-10--------|---------------------------------------|
|------------------------------12b14==|=(12)-(12)rp10-10-10-(10)--------------|
|-------------------------------------|--------------------------x-x----------|
|-------------------------------------|------------------------------x--------|
|-------------------------------------|--------------------------------x------|
|-------------------------------------|---------------------------------------|
|
| E E E E E E E E E E E E S S S S E E
|---------------0---------------------|----------------------------3----------|
|---------1-3-------------1-----------|--------------------------1---1--------|
|----2--------------2-----------2-----|--------0-------2--0------------0------|
|-------------------------------------|---2-----------------------------------|
|-------------------------------------|---------------------------------------|
|-------------------------------------|---------------------------------------|


E Q. S E S E S S
|---15b17-----15b17r(15)-----12----------------|
|-------------------------------15-15b17r(15)--|
|----------------------------------------------|
|----------------------------------------------|
|----------------------------------------------|
|----------------------------------------------|
|
| ~~~
| Q E E E Q E
|---------0-3--3b4-------3b5--------3b5--------|
|----------------------------------------------|
|----------------------------------------------|
|----------------------------------------------|
|----------------------------------------------|
|----------------------------------------------|


+S T T S S S E. H
|----------------------------------------|
|-(15)-13h15-13----13--------------------|
|---------------14------14---------------|
|----------------------------------------|
|----------------------------------------|
|----------------------------------------|
|
| ~~~~~
| E E E E +H
|---0---------3-----3b5-----3b5-(3)b5----|
|----------------------------------------|
|----------------------------------------|
|----------------------------------------|
|----------------------------------------|
|----------------------------------------|


Q E E E S S S S S S S S S S E E S S Q S S
|-8-----5---------5---------5---------|--------------------------------|
|---------------7---------5---8p5-----|-----------------------------5--|
|---------------------7b9---------7b9-|-7-5-----7-7---5-----------8----|
|-------------------------------------|-----7-------------7-5----------|
|-------------------------------------|--------------------------------|
|-------------------------------------|--------------------------------|
|
| E E S S E E E E E E S S S S S S E E Q
|-----------------3b5-----------------|---------0-0-3-5-0--------------|
|---4b6-4b5r(4)-3-----4b5---1---------|-1---3b5-----------1---3-1------|
|-------------------------------2-----|--------------------------------|
|-------------------------------------|--------------------------------|
|-------------------------------------|--------------------------------|
|-------------------------------------|--------------------------------|


Guitar Solo
Gtr II
W
|-------------------------------------------|
|-------------------------------------------|
|-------------------------------------------|
|-------------------------------------------|
|-------------------------------------------|
|-------------------------------------------|
|
| Gtr IV
| S S S S S S S S S S S a S +Q
|-------8p5-----8p5---8p5---8S10-(10)-------|
|-8p5-------5-------5-----5-----------------|
|-------------------------------------------|
|-------------------------------------------|
|-------------------------------------------|
|-------------------------------------------|
|
| Gtr V
| S E S S S S S S S S S S. T S S
|---------0-----0---0-3p0-2p===0------------|
|---3b5-----3b5---4----------------3--1-----|
|---------------------------------------2-0-|
|-------------------------------------------|
|-------------------------------------------|
|-------------------------------------------|


E S S S E S E E E +E
|------------------------5-----------|
|-------8------------------8b9-(8)b9-|
|---7b9---7----7---5-7---------------|
|------------------------------------|
|------------------------------------|
|------------------------------------|
|
| +E E E E H
|-(10)--8---10---8-------------------|
|------------------------------------|
|------------------------------------|
|------------------------------------|
|------------------------------------|
|------------------------------------|
|
| E E E E S S E Q
|------------------------------------|
|---3---1----3---1---------1---------|
|--------------------2-0-------------|
|------------------------------------|
|------------------------------------|
|------------------------------------|


|-3-|
S S S S S S S S S E E S S S S
|-5-----------------------------------|
|---8p5---5h8p5-----------------5-8-5-|
|-------8-------8-7-----7b8---7-------|
|-------------------------------------|
|-------------------------------------|
|-------------------------------------|
|
| W
|-------------------------------------|
|-------------------------------------|
|-------------------------------------|
|-------------------------------------|
|-------------------------------------|
|-------------------------------------|
|
| E E E S S S S S S S S S S
|-----5---5-------5-----5-----5-8-5---|
|-8-------------8-----5-----8-------5-|
|-------------------8-----------------|
|-------------------------------------|
|-------------------------------------|
|-------------------------------------|


E E S S S S E E S S S S
|----------------------------------------------|
|----------------------------------5----5------|
|-7b9---5----7--5---------7---------------7-5--|
|-----------------7-5--------------------------|
|----------------------------------------------|
|----------------------------------------------|
|
| H E S S S S E
|----------------------------------------------|
|-----------------------------5----5----5-8----|
|-------------------------7b9------------------|
|----------------------------------------------|
|----------------------------------------------|
|----------------------------------------------|
|
| S S S S +E E S S S S +S S S S
|-7---5-----------5---5---5--------------------|
|-------5-8-(8)---------8---------------5------|
|-----------------------------7b9-(7)b9---7-5--|
|----------------------------------------------|
|----------------------------------------------|
|----------------------------------------------|


E E S S S S S S S S E E E T T S S S S S S S S S S S S S
|-5---5-----5-8-5-----------|---------5-8-7-----5-8-5-----5-8-5--|
|---8---5-8-------5-8-5-----|-----5-8-------5-8-------5-8--------|
|---------------------------|------------------------------------|
|---------------------------|------------------------------------|
|---------------------------|------------------------------------|
|---------------------------|------------------------------------|
|
| E E E S S S S E E S S S S S S Q E E E E
|---------------------------|------------------------------------|
|---------------------5-----|-----5h==7---------8---7------------|
|-7-5-------------5---------|-5h7-----------------------7--------|
|-------------5h7-------5h7-|-------------------------------7----|
|---------5h7---------------|------------------------------------|
|---------------------------|------------------------------------|
|
| W W
|---------------------------|------------------------------------|
|---------------------------|------------------------------------|
|---------------------------|------------------------------------|
|---------------------------|------------------------------------|
|---------------------------|------------------------------------|
|---------------------------|------------------------------------|


E. S S S S S S S S S S S E
|-------------9---9---9---9-9-9-9-9-9-9---|
|-------8-----8---8---8---8-8-8-8-8-8-8---|
|-------9-----9---9---9---9-9-9-9-9-9-9---|
|-----------------------------------------|
|-----------------------------------------|
|-----------------------------------------|
|
| |------5------|
| S S S S S S S S S S S S S S S S S
|-------5-8-5-------9---8-5---------------|
|---5-8---------5-----------8-5-8-5-------|
|-7---------------------------------8-7-5-|
|-----------------------------------------|
|-----------------------------------------|
|-----------------------------------------|
|
| S S S S Q H
|-----------------------------------------|
|-----------------------------------------|
|-----------------------------------------|
|-----5h7---------------------------------|
|-5h7-----0-------------------------------|
|-----------------------------------------|


S S S S S S S S S S E Q
|-10-10-10---11-11-11-12-12---12--12-------*|
|------------------------------------------*|
|-10-10-10---11-11-11-12-12---12--12-------*|
|------------------------------------------*|
|------------------------------------------*|
|------------------------------------------*|
|
| E S S S S S S S S E Q
|----------------5-------------------------*|
|-------------5-----8--5-------------------*|
|--------7b9--------------7b9r(7)--5-------*|
|------------------------------------7-----*|
|------------------------------------------*|
|------------------------------------------*|
|
| W
|------------------------------------------*|
|------------------------------------------*|
|------------------------------------------*|
|------------------------------------------*|
|------------------------------------------*|
|------------------------------------------*|

Aucun commentaire:

Messages les plus consultés